韓流スター

AKB48

アイドル・女優

その他

Advertisement

Lady Gaga - Beautiful Dirty Rich ベースタブ譜



* ここで紹介されているスコア・タブ譜は全て”耳コピ”で行われており、オリジナルのものではありません。
* ギターを趣味で楽しむ人のためにスコア・タブ譜を紹介しております。商用目的に利用することを固く禁じます。
* tab= ギタータブ譜、crd= コード、btab= ベースタブ譜 となっております。


-------------------------------------------------------------------------------

			    Beautiful Dirty rich - Lady Gaga

-------------------------------------------------------------------------------



Tabbed By : welbi

e-mail: thomas.viseux@hotmail.fr



Tuning: Standard



A simply and catchy bassline ! =)



Verse : 

G|--------------------------------------------------------------------|

D|------------------------------5h7-----------------------------------|

A|--------------------------------------------------------------------|

E|--------------------------------------------------------------------|



Main riff/chorus :

G|--------------------------------------------------------------------|

D|----------7h9---5-4-----5h7---5-4-----------------------------------|

A|--------------------7--------------7--------------------------------|

E|------5h7-------------5--------------5------------------------------|

 
Beautiful Dirty Rich B by Lady Gaga - 弾き語りのためのギタータブ譜, ギタースコア, コード
©   funblr