韓流スター

AKB48

アイドル・女優

その他

Advertisement

Lady Gaga - Brown Eyes Intro ギタータブ譜



* ここで紹介されているスコア・タブ譜は全て”耳コピ”で行われており、オリジナルのものではありません。
* ギターを趣味で楽しむ人のためにスコア・タブ譜を紹介しております。商用目的に利用することを固く禁じます。
* tab= ギタータブ譜、crd= コード、btab= ベースタブ譜 となっております。


Just the intro, I'll try and tab the full song soon enough though ^^







e|------------|------------------------|----------|----------|------------|

B|-6----------|-------------------4----|-8--------|----6-----|------------|

G|-7----------|---10--------------5----|-8--------|-3--7-----|---------10-|

D|-8--10-12-10|-7-----10-12-10-7--6--3-|-8--1-3-5-|----8--10-|-12-10-7----|

A|-8----------|-------------------6----|-6--------|----8-----|------------|

E|------------|------------------------|----------|----------|------------|



e|----------------|-------|

B|-------------4--|----8--|

G|-------------5--|----8--|

D|-10-12-10-7--6--|-3--8--|

A|-------------6--|----6--|

E|----------------|-------|



The chords I use throughout the song are

Bb: 6   Dm: 10   Eb: x   Cm: 8

    6       10       8       8

    7       10       8       8

    8       12       8       10

    8       12       6       10

    6       10       x       8
 
Brown Eyes Intro by Lady Gaga - 弾き語りのためのギタータブ譜, ギタースコア, コード
©   funblr