韓流スター

AKB48

アイドル・女優

その他

Advertisement

Lady Gaga - Brown Eyes ギタータブ譜



* ここで紹介されているスコア・タブ譜は全て”耳コピ”で行われており、オリジナルのものではありません。
* ギターを趣味で楽しむ人のためにスコア・タブ譜を紹介しております。商用目的に利用することを固く禁じます。
* tab= ギタータブ譜、crd= コード、btab= ベースタブ譜 となっております。


Brown Eyes

Lady Gaga

Tab by ohthatsgood



Tabbed this for guitar off the piano version.



[Chords]

   Bb Dm G# Eb F     Note: I can't play the whole Eb, so I just play this.

e|-6--5--4--3--1-|                         e|-x-|

B|-6--6--4--4--1-|                         B|-4-|

G|-7--7--5--3--2-|                         G|-x-|

D|-8--7--6--5--3-|                         D|-5-|

A|-8--5--6--6--3-|                         A|-6-|

E|-6--5--4--3--1-|                         E|-x-|



[Intro]

   Bb           Dm           G# F  Eb

e|------------------------------------|

B|-6------------6------------4-----4--|

G|-7--5h7p5-----7--5h7p5-----5--------|

D|-8---------7--7---------7--6-----5--|

A|---------------------------------6--|

E|-6------------5------------4--1-----| x2



[This is how I pick the verses]

   Bb              Dm              G#              Eb      

e|----------------------------------------------------------------|

B|-6---6---6---6---6---6---6---6---4---4---4---4---4---4---4---4--|

G|-7---7---7---7---7---7---7---7---5---5---5---5------------------|

D|-8---8---8---8---7---7---7---7---6---6---6---6---5---5---5---5--|

A|-------------------------------------------------6-6---6---6---6|

E|-6-6---6---6---6-5-5---5---5---5-4-4---4---4---4----------------| etc.

   1 & 2 & 3 & 4 & 1 & 2 & 3 & 4 & 1 & 2 & 3 & 4 & 1 & 2 & 3 & 4 & 



[Verse 1]

        Bb          Dm

In your brown eyes, I walked away

        G#          Eb

In your brown eyes, couldn't stay

        Bb              Dm 

In your brown eyes, you watch her go

     G#                     Eb                                F

Then turn the record on and wonder what went wrong, what went wrong



[Chorus] (each chord gets only 2 counts each)

   Bb             Dm              G#            Eb

If everything was everything, but everything is over

Bb                  Dm             G#           Eb

Everything could be everything, if only we were older

Bb                Dm          G# (4 counts)

Guess it's just a silly song about you

          Eb (2 counts)F (1 count, then rest)G... (play intro x2)

And how I lost you ... and your brown eyes



[Verse 2]

In your brown eyes, I was feeling low

Cause the brown eyes, and you'll never know

Got some brown eyes, but I saw her face

I knew that it was wrong, so baby turn the record on, play that song



[Chorus]



[Chorus]

Everything was everything, but baby it's the last show

Everything could be everything, but it's time to say goodbye so

Get your last fix and your last hit, grab your old girl with her tricks

Honey, yeah, It's no surprise that I got lost in your brown eyes...
 
Brown Eyes by Lady Gaga - 弾き語りのためのギタータブ譜, ギタースコア, コード
©   funblr