韓流スター

AKB48

アイドル・女優

その他

Advertisement

Lady Gaga - Eh Eh Nothing Else I Can Say ベースタブ譜



* ここで紹介されているスコア・タブ譜は全て”耳コピ”で行われており、オリジナルのものではありません。
* ギターを趣味で楽しむ人のためにスコア・タブ譜を紹介しております。商用目的に利用することを固く禁じます。
* tab= ギタータブ譜、crd= コード、btab= ベースタブ譜 となっております。


I'm writing a powertab for this, and I just finished the bassline. The bass is really 

so I figured I'd post up a text tab for it. Exported straight from powertab so there's all 

note values and stuff on it. Ratings etc would be appreciated :)



If you are so inclined, comments, criticism and corrections can be sent to 

funkymonkey_2311@hotmail.com.



------------

Lady Gaga

Eh, Eh (Nothing Else I Can Say)

The Fame

2008

Tabbed by Jess/Abongachong

------------



Wx2 = Rest for 2 bars

Wx8 = Rest for 8 bars

$ = Segno

D.S. = Dal Segno

(So basically, once you get to DS, go back and start playing again from the $ and play 

to the end.)



Intro

  Q=180

 4/4

  Gtr I

  Wx2            Q  E E Q  Q    E E Q  Q  Q    Q  E E Q  Q    E E Q  Q  Q   4x

|------------||------------9--|-8-8----------|-----------6--|-----------9---||

|------------||o----x---9-----|-----9--------|----x---7-----|-----6--7-----o||

|------------||o-7----7-------|--------9--7--|-9----9-------|-9-9----------o||

|------------||---------------|--------------|--------------|---------------||





   Verse

    $

    Q  E E Q  Q    E E Q  Q  Q      Q  E E q  Q    E E q  Q  Q

||------------6--|-----------6---||--------------|--------------|

||o----x---7-----|-----6--7-----o||----x-x-6--9--|--------------|

||o-9----9-------|-9-9----------o||-7------------|-----6--9-----|

||---------------|---------------||--------------|-7-7-------7--|





    Q  E E Q  Q    E E Q  Q  Q      Q  E E q  Q    E E q  Q  Q

||------------6--|-----------6---||--------------|--------------|

||o----x---7-----|-----6--7-----o||----x-x-6--9--|--------------|

||o-9----9-------|-9-9----------o||-7------------|-----6--9-----|

||---------------|---------------||--------------|-7-7-------7--|





 Pre Chorus

  Q  E E q  Q    E E q  Q  Q    Q  E E q  Q    E E q  Q  Q

|--------------|--------------|--------------|---------------|

|----x-x-6--9--|--------------|----x-x-6--9--|---------------|

|-7------------|-----6--9-----|-7------------|-----6--9------|

|--------------|-7-7-------7--|--------------|-7-7-------7---|





  Q  E E Q  Q    E E Q  Q  Q    Q  E E q  Q    E E q  Q  Q

|--------------|--------------|--------------|---------------|

|-----------6--|-----------6--|----x-x-6--9--|---------------|

|----x---7-----|-----6--7-----|-7------------|-----6--9------|

|-9----9-------|-9-9----------|--------------|-7-7-------7---|





   Chorus

                                                 1.,2.,3.         4.

                                                                        D.S.

    Q  E E Q  Q    E E Q  Q  Q    Q  E E Q  Q    E E Q  Q  Q   4x E E Q  Q  Q

||------------9--|-8-8----------|-----------6--|-----------9---||-----------9--|

||o----x---9-----|-----9--------|----x---7-----|-----6--7-----o||-----6--7-----|

||o-7----7-------|--------9--7--|-9----9-------|-9-9----------o||-9-9----------|

||---------------|--------------|--------------|---------------||--------------|





   Break

    Q  E E Q  Q    E E Q  Q  Q      Q  E E q  Q    E E q  Q  Q

||------------6--|-----------6---||--------------|--------------|

||o----x---7-----|-----6--7-----o||----x-x-6--9--|--------------|

||o-9----9-------|-9-9----------o||-7------------|-----6--9-----|

||---------------|---------------||--------------|-7-7-------7--|





 Pre Chorus

  Q  E E q  Q    E E q  Q  Q    Q  E E q  Q    E E q  Q  Q

|--------------|--------------|--------------|---------------|

|----x-x-6--9--|--------------|----x-x-6--9--|---------------|

|-7------------|-----6--9-----|-7------------|-----6--9------|

|--------------|-7-7-------7--|--------------|-7-7-------7---|





  Q  E E Q  Q    E E Q  Q  Q    Q  E E q  Q    E E q  Q  Q

|--------------|--------------|--------------|---------------|

|-----------6--|-----------6--|----x-x-6--9--|---------------|

|----x---7-----|-----6--7-----|-7------------|-----6--9------|

|-9----9-------|-9-9----------|--------------|-7-7-------7---|





 Bridge/Chorus

  Wx8            Q  E E Q  Q    E E Q  Q  Q    Q  E E Q  Q    E E Q  Q  Q

|------------||------------9--|-8-8----------|-----------6--|-----------9----||

|------------||o----x---9-----|-----9--------|----x---7-----|-----6--7------o||

|------------||o-7----7-------|--------9--7--|-9----9-------|-9-9-----------o||

|------------||---------------|--------------|--------------|----------------||





   Out-Chorus

    Q  E E Q  Q    E E Q  Q  Q    Q  E E Q  Q    E E Q  Q  Q   4x

||------------9--|-8-8----------|-----------6--|-----------9---||

||o----x---9-----|-----9--------|----x---7-----|-----6--7-----o||

||o-7----7-------|--------9--7--|-9----9-------|-9-9----------o||

||---------------|--------------|--------------|---------------||
 
Eh Eh Nothing Else I Can Say B by Lady Gaga - 弾き語りのためのギタータブ譜, ギタースコア, コード
©   funblr