韓流スター

AKB48

アイドル・女優

その他

Advertisement

Lady Gaga - Fashion ギタータブ譜



* ここで紹介されているスコア・タブ譜は全て”耳コピ”で行われており、オリジナルのものではありません。
* ギターを趣味で楽しむ人のためにスコア・タブ譜を紹介しております。商用目的に利用することを固く禁じます。
* tab= ギタータブ譜、crd= コード、btab= ベースタブ譜 となっております。


-------------------------------------------------------------------------------

                             Fashion - Lady Gaga

-------------------------------------------------------------------------------

Tabbed by: Martin Messner

Email: bigbonsai@hotmail.de

This Song On Youtube: http://www.youtube.com/watch?v=Jf3fKYH5tJI



Tuning: E-Standard



//////////////////////////////////////////////

//                                          //

//  RATING THIS TAB TAKES ABOUT 5 SECONDS   //

//  AND HELPS ME TO IMPROVE MY WORK         //

//                                          //

//////////////////////////////////////////////



Bass

G|-----------------------------------------------------------||

D|-----------------------------------------------------------||

A|---3--3----------1--1--3--3-3--3--3----------1--1--3--3-3--||

E|---------4--4-4----------------------4--4-4----------------||

              

                                                |

Hollow-Bass                                                   |

G|-----------------------------------------------------------||

D|-------------------------------5--5----------3--3--5--5-5--||

A|-------------------------------------6--6-6----------------||

E|-----------------------------------------------------------||





high Synth-Pad (appears later)

e|-----------------------------------------------------------|

B|----------------11-11-----------------------11--11---------|

G|-12--12--12--12-------12--12-12--12--12--12--------12--12--|

D|-----------------------------------------------------------|

A|-----------------------------------------------------------|

E|-----------------------------------------------------------|





melodic synth-pad (0:08 - 0:16 and sometimes later)

e|------13-------15---16-------13------|

B|----------16---16--------------------|

G|-(13)---------------13---12------13--|

D|-----------------------------15--13--|

A|-------------------------------------|

E|-------------------------------------|



 
Fashion by Lady Gaga - 弾き語りのためのギタータブ譜, ギタースコア, コード
©   funblr