韓流スター

AKB48

アイドル・女優

その他

Advertisement

Lady Gaga - Just Dance ベースタブ譜



* ここで紹介されているスコア・タブ譜は全て”耳コピ”で行われており、オリジナルのものではありません。
* ギターを趣味で楽しむ人のためにスコア・タブ譜を紹介しております。商用目的に利用することを固く禁じます。
* tab= ギタータブ譜、crd= コード、btab= ベースタブ譜 となっております。


Standar Tuning



pause for one bar, then begin with synth melody.



G|-------------------------------|-------------------------------|   x2

D|---2-2---44-2----2-2---44-4----|---2-2---44-2----2-2---44-4----|

A|4-4---2-------4-4---2----------|4-4---2-------4-4----2---------|

E|-------------------------------|-------------------------------|



G|-------------------------------|-------------------------------|

D|-------------------------------|-------------------------2-1---|

A|0--0--0--0-0-2-4--24--24--244-2|0--0--0--0-0-2-4--24--24----2-4|

E|--4--4--4----------------------|--4--4--4----------------------|





Chorus:



G|-------------------------------|-------------------------------|

D|---2-2---44-2----2-2---44-4----|---2-2---44-2----2-2---44-4----|

A|4-4---2-------4-4---2----------|4-4---2-------4-4----2---------|

E|-------------------------------|-------------------------------|



Verse:



G|-------------------------------|-------------------------------|

D|---2-2---44-2----2-2---44-4----|---2-2---44-2----2-2---44-4----|

A|4-4---2-------4-4---2----------|4-4---2-------4-4----2---------|

E|-------------------------------|-------------------------------|



G|-------------------------------|-------------------------------|

D|-------------------------------|-------------------------2-1---|

A|0--0--0--0-0-2-4--24--24--244-2|0--0--0--0-0-2-4--24--24----2-4|

E|--4--4--4----------------------|--4--4--4----------------------|



Chorus:



G|-------------------------------|-------------------------------|

D|---2-2---44-2----2-2---44-4----|---2-2---44-2----2-2---44-4----|

A|4-4---2-------4-4---2----------|4-4---2-------4-4----2---------|

E|-------------------------------|-------------------------------|



Verse: (Colby O'Donnis)



G|-------------------------------|-------------------------------|

D|---2-2---44-2----2-2---44-4----|---2-2---44-2----2-2---44-4----|

A|4-4---2-------4-4---2----------|4-4---2-------4-4----2---------|

E|-------------------------------|-------------------------------|



G|-------------------------------|-------------------------------|

D|-------------------------------|-------------------------2-1---|

A|0--0--0--0-0-2-4--24--24--244-2|0--0--0--0-0-2-4--24--24----2-4|

E|--4--4--4----------------------|--4--4--4----------------------|



Pause... Wait until "...Gonna be okay, Da Doo Doo" then start:



Chorus:



G|-------------------------------|-------------------------------|

D|---2-2---44-2----2-2---44-4----|---2-2---44-2----2-2---44-4----|

A|4-4---2-------4-4---2----------|4-4---2-------4-4----2---------|

E|-------------------------------|-------------------------------|



Breakdown:



G|-------------------------------|-------------------------------| x3

D|---22-44-66--------------------|---22-44-66--------------------|

A|44----------22----00-22--------|44----------22----00-22--------|

E|---------------44--------------|---------------44--------------|



Pause... Wait until "...Gonna be okay, Da Doo Doo" then start:



Chorus:



G|-------------------------------|-------------------------------|

D|---2-2---44-2----2-2---44-4----|---2-2---44-2----2-2---44-4----|

A|4-4---2-------4-4---2----------|4-4---2-------4-4----2---------|

E|-------------------------------|-------------------------------|



G|-------------------------------||

D|---2-2---44-2----2-2---44-4----||

A|4-4---2-------4-4---2----------||

E|-------------------------------||



I think it's correct, maybe the timing is a little off but you'll get it, it's very 

 enjoy!  =D
 
Just Dance B by Lady Gaga - 弾き語りのためのギタータブ譜, ギタースコア, コード
©   funblr