韓流スター

AKB48

アイドル・女優

その他

Advertisement

Lady Gaga - Money Honey ベースタブ譜



* ここで紹介されているスコア・タブ譜は全て”耳コピ”で行われており、オリジナルのものではありません。
* ギターを趣味で楽しむ人のためにスコア・タブ譜を紹介しております。商用目的に利用することを固く禁じます。
* tab= ギタータブ譜、crd= コード、btab= ベースタブ譜 となっております。


Lady Gaga --Money Honey

Album: The Fame

Standard Tuning



Verse

|--------8-------------|

|--6-8-9---8-4---------|

|---------------69696--|x6

|----------------------|



(0:23)

|--------------------------------------|

|-6-5-4-3-2-2--------6-5-4-3-2-2-------|

|-------------69696--------------69999-|

|--------------------------------------|



Chours (0:31)

|--------8-------------|

|--6-8-9---8-4---------|

|---------------69696--|x4

|----------------------|



Verse (0:47)

|--------8-------------|

|--6-8-9---8-4---------|

|---------------69696--|x6

|----------------------|



(1:12)

|--------------------------------------|

|-6-5-4-3-2-2--------6-5-4-3-2-2-------|

|-------------69696--------------69999-|

|--------------------------------------|



(1:20)

|--------8-------------|

|--6-8-9---8-4---------|

|---------------69696--|x4

|----------------------|



Bridge (1:36)

|--------8-------------|

|--6-8-9---8-4---------|

|---------------69696--|

|----------------------|



|--------9-8-----9-8-----|

|-8-9-11-----9--9----8-6-|

|------------------------|

|------------------------|



|--------8-------------|

|--6-8-9---8-4---------|

|---------------69696--|

|----------------------|



|--------9-8-----9-8-----|

|-8-9-11-----9--9----8-6-|

|------------------------|

|------------------------|



Repeat till end (1:54)

|--------8-------------|

|--6-8-9---8-4---------|

|---------------69696--|

|----------------------|
 
Money Honey B by Lady Gaga - 弾き語りのためのギタータブ譜, ギタースコア, コード
©   funblr