韓流スター

AKB48

アイドル・女優

その他

Advertisement

Lady Gaga - Poker Face ベースタブ譜



* ここで紹介されているスコア・タブ譜は全て”耳コピ”で行われており、オリジナルのものではありません。
* ギターを趣味で楽しむ人のためにスコア・タブ譜を紹介しております。商用目的に利用することを固く禁じます。
* tab= ギタータブ譜、crd= コード、btab= ベースタブ譜 となっております。


INTRO/VERSE(WHEN DRUM COMES IN)

G|--------------------------------|

D|-6-6-------------6-6------------|

A|---------6-6---------7--9-9-----|

E|-----4-4-----4-4------7-----2-2-|



(ON LAST TIME BEFORE CHORUS, PLAY THIS)

G|---------------------|

D|-6-6-------------6-6-|

A|---------6-6---------|

E|-----4-4-----4-4-----|



CHORUS

G|---------------------------------|

D|---------22222222----------------|

A|--------2--------22222-421111111-|

E|-4444444--------------2----------|



INTRO/VERSE X10

CHORUS X2

INTRO/VERSE X10

CHORUS X2

INTRO/VERSE X8

CHORUS (UNTIL END)
 
Poker Face B by Lady Gaga - 弾き語りのためのギタータブ譜, ギタースコア, コード
©   funblr